Eric Clapton – Tears in heaven

La vidéo (intégration désactivée) : http://www.youtube.com/watch?v=7xI-LhFovTQ

Tablature :

h : hammer on
p : pull off

 
     would you     know   my name
|-------------------------------------------------------------|
|--------2h3p2------5-------2------2-----2------2------3------|
|----2---------2----4-------2------2-----2------2------2------|
|----2--------------------------------------------------------|
|-0-----------------------------------------------------------|
|-------------------4-------2---2-----2--0---0------0--2---2--|

 if i    saw you in heaven                       would it
|-------------------------------------------------------------|
|-3-------2-------2-----0-----0-----2-----3--------2h3h2------|
|-2-------2-------2-----1-----1-----2-----4-----2---------2---|
|-----------------------------------------------2-------------|
|-------------------------------------------------------------|
|-2---2---0---0------0-----0-----0-----0-----0----------------|

 be   the same                               if i   saw you in
|-------------------------------------------------------------|
|-5--------2------2-----2-----2-----2-----3-----3------2------|
|-4--------2------2-----2-----2-----2-----2-----2------2------|
|-------------------------------------------------------------|
|-------------------------------------------------------------|
|-4----4---2---2-----2-----0-----0-----2-----2-----2---0---0--|

 heaven                            i must     be strong
|-------------------------------------------------------------|
|-0-----0-----2------3------2-----2------2-----2-------2------|
|-1-----1-----2------4------2-----2------2-----2-------1------|
|-------------------------------------------------------------|
|-------------------------------------------------------------|
|----0-----0-----0------0---2--2------2-----2------2---1---1--|

                               and car   ry  on     cause i
|-------------------------------------------------------------|
|-2------2------2------2-----2-----2----2---------------------|
|-1------1------1------0-----0-----0----0-------3-----3-----3-|
|-----------------------------------------------2-----2-----2-|
|-------------------------------------------------------------|
|----1------1------1------0-----0-----0----0----2-----2-----2-|

       i d'ont    be long
|-------------------------------------------------------------|
|----3------3------3------3----------3--------3---------------|
|----2------2------2------2----------2--------2---------------|
|-------------------------------------------------------------|
|-2-----2------2----------------------------------------------|
|---------------------0----------0---------0------------------|

 here in heaven
|--------------------------------------------------------------|
|---------------2h3h2-----5------5---2-------2-----2------2----|
|----------2----------2---4------4---2-------2-----2------2----|
|----------2---------------------------------------------------|
|-------0------------------------------------------------------|
|-0-h-2-------------------4---4------2---2------2--0---0-----0-|

|-------------------------------------------------------------|
|-3------3-------3---3-------3----2------2------2------2------|
|-2------2-------2---2-------1----2------2------2------2------|
|-------------------------------------------------------------|
|---------------------------------0---0-----0---0---0------0--|
|-2---2------2---0---0---0---0--------------------------------|

        would you   hold  my hand
|-------------------------------------------------------------|
|--------2h3h2------5------2--------2------2-------2------3---|
|----2----------2---4------2--------2------2-------2------2---|
|----2--------------------------------------------------------|
|-0-----------------------------------------------------------|
|-------------------4------2-----2-----2---0---0------0---2---|

  if i          saw you in heaven
|-------------------------------------------------------------|
|-3-------3-------2------2------0-----0-----2------3----------|
|-2-------2-------2------2------1-----1-----2------4----------|
|-------------------------------------------------------------|
|----------------------------------------------------------0--|
|-2---2---2---2---0---0------0-----0-----0-----0-------0------|

    would ya  help  me  stand
|-------------------------------------------------------------|
|----2h3h2------5--------2------2-----2-----2------2------3---|
|-2--------2----4--------2------2-----2-----2------2------2---|
|-------------------------------------------------------------|
|-------------------------------------------------------------|
|---------------5----4---2---2-----2-----0-----0------0---2---|

      if    saw you in heaven
|-------------------------------------------------------------|
|-----3------2-------2-----0-----0------2-----3------2------2-|
|-----2------2-------2-----1-----1------2-----4------2------2-|
|-------------------------------------------------------------|
|-------------------------------------------------------------|
|-2------2---0---0------0-----0------0-----0-----0---2---2----|

           i find   my   way
|-------------------------------------------------------------|
|-2------2-----2-----2------2------2-----2-----2-----2-----2--|
|-2------2-----2-----2------1------1-----1-----1-----0-----0--|
|-------------------------------------------------------------|
|-------------------------------------------------------------|
|-2---2-----2-----2-----2---1---1-----1-----1-----1-----0-----|

 through nightand days cause i know    i just     can't stay
|-------------------------------------------------------------|
|----2-----2------------------3------3------2------3----------|
|----0-----0------3------3----2------2------2------2----------|
|-----------------2------2------------------------------------|
|-----------------------------2---2-----2---2---2-------------|
|-0-----0-----0---2------2-----------------------------0------|

        here in heaven
|-------------------------------------------------------------|
|-3-----3----------------------2h3h2------5------5---2------2-|
|-2-----2-------------------2---------2---4------4---2------2-|
|---------------------------2---------------------------------|
|------------------------0------------------------------------|
|----0------------0-h-2-------------------4---4------2---2----|

|-------------------------------------------------------------|
|-----2-------2------3------3------3-------3---2------2-------|
|-----2-------2------2------2------2-------1---2------2-------|
|-------------------------------------------------------------|
|----------------------------------------------0---0------0---|
|-2---0---0------0---2---2-----2---0---0---0------------------|
|-------------------------------------------------------------|
|-2------2--------------------1----------------------1----3---|
|-2------2----------------0-------------0------------2----2---|
|-------------------------------------------------2-----------|
|-0---0------0-h-2----3-------------2---------0---------------|
|---------------------------------------------------------2---|

|-------------------------------------------------------------|
|----3---------3------3------3------3-------------------------|
|----2---------0------0------2------2-------------------------|
|-------------------------------------------------------------|
|-------------------------------------------------------------|
|-2-----2---3-----3------3---2---2-----2----------------------|

Posté le 8 Mar 2010 par | Pas de Commentaire » Tags : |

Leave a Reply

Galerie

Recherche

Catégories

Suivre JulG7 – Le blog



Commentaires récents

Liens

Archives

Copyright © 2016 JulG7 – Le blog. All rights reserved.

| thème réalisé par JulG7