Seether – Broken

Chanson :

Leçon approfondie

Tablature :
CAPO I

   Dm               Bb2                                    }
e--2h3------3--3------3--------------|                     }
b------0-------3----3---3---3h0------|                     }
g--------0--------0-------0----------|                     }
d--2---------------------------------|     X3              }
a--------------3---------------------|                     }
E------------------------------------|                     }
                                                           }
And then...                                                }     X2
                                                           }
   D                                                       }
e--0h2--------3p2-----0h2-----------3p2--------|           }
b-------3----------3-------3-----3-------3-----|           }
g----------2------------------2-------------2--|           }
d--0-------------------------------------------|    X1     }
a----------------------------------------------|           }
E----------------------------------------------|           }

Dm              Bb2    Dm                Bb2
I wanted you to know I love the way you laugh
Dm       Bb2                D
I wanna hold you high and steal your pain away
Dm          Bb2         Dm        Bb2
I keep your photograph; I know it serves me well
Dm      Bb2                D
I wanna hold you high and steal your pain

          C  Em
Cause I'm broken
D       C Em
when I'm open
D       C        Em
and I don't feel like
D    C        Em
I am strong enough
          C  Em
Cause I'm broken
D        C   Em
when I'm lonesome
D     C         Em
and I don't feel light
D         C    Em
when your gone away

Dm              Bb2    Dm                Bb2
You've gone away, you don't feel me, anymore

The worst is over now and we can breathe again
I wanna hold you high, you steal my pain away
There’s so much left to learn, and no one left to fight
I wanna hold you high and steal your pain

‘Cause I’m broken when I’m open
And I don’t feel like I am strong enough
‘Cause I’m broken when I’m lonesome
And I don’t feel right when you’re gone away

‘Cause I’m broken when I’m open
And I don’t feel like I am strong enough
‘Cause I’m broken when I’m lonesome
And I don’t feel right when you’re gone away

'Cause I'm broken when I'm lonesome
And I don't feel right when you're gone away

You've gone away
You don't feel me here anymore

Posté le 23 Avr 2009 par | Pas de Commentaire » Tags : |

Leave a Reply

Galerie

Recherche

Catégories

Suivre JulG7 – Le blog



Commentaires récents

Liens

Archives

Copyright © 2016 JulG7 – Le blog. All rights reserved.

| thème réalisé par JulG7